You are on page 1of 2

Os Novos Baianos - Mistrio do Planeta

Intro 3x: A7M C#m7


F#m
C#m7
C#4/7 C#m7 C#m C#m7
E|----4p2--------4p2-----------------4----------------------|
B|---2------2----2-------2----------5-----7----5----5----5--|
G|--2-------2---2--------2---------4------4----4----6----4--|
D|-2-----2----2--------2------------------6----6----6----6--|
A|------------------------------4------------4----4----4----|
E|----------------------------------------------------------|
F#m
C#m7
C#4/7 C#m7
E|-4-2--------4-2----------------4--7---4-------------|
B|-2-2---2----2-2----2----------5---5---5----7-----5--|
G|-2-2---2----2-2----2---------4----4---4----4-----4--|
D|-2---2------2----2-------------------------6-----6--|
A|--------------------------4---------4---4-----4-----|
E|----------------------------------------------------|
F#m
E|-4-2--------4-2---------------2-----------|
B|-2-2---2----2-2---2-----------2-----------|
G|-2-2---2----2-2---2-----------2-----------|
D|-2---2------2---2----------2--4-----------|
A|------------------------4-----------------|
E|------------------------------------------|
F#m7
B7/9 B7
C#m7 C#m6 A7 B7 A7 G#7
Vou mostrando como sou,
e vou sendo como posso
C#m7 C#m6
G7
F#7
A7
E7
Jogando meu corpo no mundo, andando por todos os cantos
C#m7 C#m6 G7
F#7
A7
F#m7
E pela lei natural dos encontros, eu deixo e recebo um tanto
B7
C#m7
A7M
E passo aos olhos nus ou vestidos de lunetas, passado, presente
C#m7
A7M
C#m7
participo, sendo o mistrio do planeta
Intro
Repete
B7
F#m7
B7
E7
O trplice mistrio do stop que eu passo por e sendo ele
C#m7 C#m6 G7 F#7
A7
E7
No que fica em cada um,
no que sigo o meu caminho
C#m7 C#m6 G7 F#7
A7
E7
E no ar que fez que assistiu, abra um parntese, no esquea
C#m7 C#m6 G7
F#7
A7 E7
Que independente disso eu no passo de um malandro
C#m7
C#m6 G7
F#7
A7M
B7
C#m7
De um moleque do Brasil que peo e dou esmolas
A7M
C#m7
Mas ando e penso sempre com mais de um
A7M
C#m7
(A7M C#m7)

Por isso ningum v minha sacola


Riff Final:
F#m
E
E|------2-----0------|
B|------2-----0------|
G|------2-----1------|
D|---2--4-----2------|
A|4-----------2------|
E|------------0------|
----------------- Acordes ----------------G7 = 3 5 3 4 3 3
G#7 = 4 6 4 5 4 4
F#m7 = 2 X 2 2 2 X
F#m = 2 4 4 2 2 2
F#7 = 2 4 2 3 2 2
A7 = X 0 2 0 2 0
A7M = X 0 2 1 2 0
B7 = X 2 1 2 0 2
B7/9 = X 2 1 2 2 X
C#4/7 = X 4 6 4 7 4
C#m = X 4 6 6 5 4
C#m6 = X 4 X 3 5 4
C#m7 = X 4 6 4 5 4
E = 0 2 2 1 0 0
E7 = 0 2 2 1 3 0