You are on page 1of 1

Another One Bites The Dust, Queen

esta es la cancion de queen, empieza con el bajo y luego entra la guitarra


g-----------------r--------------------|
d-----------------e--------------------|
a-1---------------s---------------1----|
e---4---1---1---1-t--1-1-1--4--1-------|

(0:54)

(1:05) (repite) (1:22)


d du d d du d d
e--1~~--------------1-|:-x-x--1--1--x-x--1--1-:|----------|
b--1~~--------------1-|:-x-x--1--1--x-x--1--1-:|----------|
g--1~~--------------1-|:-x-x--1--1--x-x--1--1-:|----------|
d---------6---3-------|:----------------------:|--6---3---|
a---------6---3-------|:----------------------:|--6---3---|
e---------4---1-------|:----------------------:|--4---1---|

(3:15)
e--x-x--1--1--1-1-1-1---4--x--x-x--6-|
b--x-x--1--1--1-1-1-1---4--x--x-x--6-|
g--x-x--1--1--1-1-1-1---4--x--x-x--6-|
d--------------------------------------|
a--------------------------------------|
e--------------------------------------|