You are on page 1of 8

Te Metiste - Completo Key of G

Ariel Camacho
(/) Slide Up (\) Slide Down (h) Hammer On (p) Pull Off (b) Bend
(r) Release (v) Vibrato
Primer Requinto:
E|--15--15--14--
B|--17--17--15--
G|--------------
D|--------------
A|--------------
E|--------------
E|--14/15--14--14/15--14--14/15--14--14/15-
B|--15/17--15--15/17--15--15/17--15--15/17-
G|-----------------------------------------
D|-----------------------------------------
A|-----------------------------------------
E|-----------------------------------------
E|--14--14-----14--14--14--
B|--15--15-----15--15--15--
G|-------------------------
D|-------------------------
A|-------------------------
E|------------------------
E|--10--10--12--14--10--14--10--14--10-
B|--12--12--13--15--12--15--12--15--12-
G|----------------------------------
D|----------------------------------
A|----------------------------------
E|----------------------------------

E|--12--10--7----7----7-----7-----
B|--13--12--8------8-----8-----8--
G|-------------------------------
D|-------------------------------
A|-------------------------------
E|-------------------------------

E|--12--12--12--10--8---10--10/12---12--12--12
B|--13--13--13--12--10--12--12/13---13--13--13
G|-------------------------------------------
D|-------------------------------------------
A|-------------------------------------------
E|-------------------------------------------

Page 1
E|--8---8---14--12--12--10--10--8---8---7--7--5--5--3--3--2
B|--10--10--15--13--13--12--12--10--10--8--8--7--7--5--5--3
G|--------------------------------------------------------
D|--------------------------------------------------------
A|--------------------------------------------------------
E|--------------------------------------------------------
E|--5--8---
B|--7--10--
G|---------
D|---------
A|---------
E|---------
E|--7--------------------------------------------
B|--8--8--7--5-----------------------------------
G|--------------7--5--4--------------------------
D|-----------------------7--5--5--5--5--5--5--5--
A|-----------------------------------------------
E|-----------------------------------------------

E|-------------------------------------------------------
B|--------------------------------5--7/8--5--------------
G|--4--4--4--4--4--4--7--7--7--7-------------7--5--4-----
D|----------------------------------------------------7--5
A|--------------------------------------------------------
E|--------------------------------------------------------

E|------------------
B|-------------7/8--
G|--4--4--4h7-------
D|------------------
A|------------------
E|------------------
-------------------------------------
Adornos: En la letra de la cancion, puse numeros en PARENTESIS
donde se tocan estos adornos. Solo hay 9 adornos. Entonces fijate
en la letra de la cancion abajo en este documento para que sepas
donde se tocan estos adornos.

Este simbolo "~" quiere decir que necesitas tocar la nota con la
pua rapido para arriba y para abajo muchas veces.

Adorno 1
E|--5--3-----5--3-----
B|--------5-----------
G|-----------------5--
D|--------------------
A|--------------------

Page 2
E|--------------------

Adorno 2
E|-----------------------------------
B|--------------------------5--------
G|-----------------4--5--7-----7--4--
D|--------4--5--7--------------------
A|--5--7-----------------------------
E|-----------------------------------
Adorno 3
E|----------------------------------------------------
B|-----5--------5--------5-----------------------7/8--
G|--7-----7--4-----7--4-----7--4--------4--4--7-------
D|--------------------------------5-------------------
A|----------------------------------------------------
E|----------------------------------------------------
Adorno 4

E|--5--3--------
B|--------5-----
G|-----------5--
D|--------------
A|--------------
E|--------------
Adorno 5

E|-----------3-----2--------------
B|-----3--5-----------5--3--------
G|--5-----------------------4-----
D|-----------------------------5--
A|--------------------------------
E|--------------------------------

Adorno 6
E|----------------------------------------------------
B|--------------------------7/8-----------------------
G|-----------------4--4--7----------4--7--------4--5--
D|--9~~8~~7~~5-------------------5--------5--7--------
A|----------------------------------------------------
E|----------------------------------------------------
----------------------------------------
Segundo Requinto:

E|--15--15--14--

Page 3
B|--17--17--15--
G|--------------
D|--------------
A|--------------
E|--------------
E|--14/15--14--14/15--14--14/15--14--14/15-
B|--15/17--15--15/17--15--15/17--15--15/17-
G|-----------------------------------------
D|-----------------------------------------
A|-----------------------------------------
E|-----------------------------------------
E|--14--14-----14--14--14--
B|--15--15-----15--15--15--
G|-------------------------
D|-------------------------
A|-------------------------
E|------------------------
E|--10--10--12--14--10--14--10--14--10-
B|--12--12--13--15--12--15--12--15--12-
G|----------------------------------
D|----------------------------------
A|----------------------------------
E|----------------------------------
E|--12--10--7----7-7-
B|--13--12--8----8-8-
G|-------------------
D|-------------------
A|-------------------
E|-------------------

E|--12--12--12--10--8---10--10/12---12--12--12
B|--13--13--13--12--10--12--12/13---13--13--13
G|-------------------------------------------
D|-------------------------------------------
A|-------------------------------------------
E|-------------------------------------------

E|--8---8---
B|--10--10--
G|----------
D|----------
A|----------
E|----------
E|------14----------12----------10----------8--------7--
B|--15------13--13------12--12------10--10-----8--8-----
G|------------------------------------------------------

Page 4
D|------------------------------------------------------
A|------------------------------------------------------
E|------------------------------------------------------
E|--------5--------3--2--5--8---
B|--7--7-----5--5-----3--7--10--
G|------------------------------
D|------------------------------
A|------------------------------
E|------------------------------
E|--7--------------------------------
B|--8--8--7--5-----5-----------------
G|--------------7-----7--5--4--------
D|-----------------------------7--5--
A|-----------------------------------
E|-----------------------------------

E|--------------
B|-----5~~7~~8--
G|--7~~---------
D|--------------
A|--------------
E|--------------

E|----------------------------------------------
B|--8--7--5-----5--------------------------7/8--
G|-----------7-----7--4-----------4--4--7-------
D|-----------------------8--7--5----------------
A|----------------------------------------------
E|----------------------------------------------
-------------------------------------------------
Ultimos Adornos:

Adorno 7

E|--5-3-----5--3-----5--3--------
B|-------5--------5--------5-----
G|----------------------------5--
D|-----------------------------
A|-----------------------------
E|-----------------------------
Adorno 8

E|--------------------------------------------------------
B|--5--------5-----------------------8--------8--8--7--6--
G|-----7--5-----7--5--4--------4--7-----4--7--------------
D|-----------------------7--5-----------------------------

Page 5
A|--------------------------------------------------------
E|--------------------------------------------------------
Adorno 9

E|-----------------------------------------------
B|--------------5--------------------------5--7--
G|-----------------7--5--4--------4--5--7--------
D|--------4--5--------------7--5-----------------
A|--5--7-----------------------------------------
E|-----------------------------------------------

English-Spanish Conversion: Ingles a Espaol Conversion:


A=LA
B=Si
C=DO
D=RE
E=Mi
F=FA
G=SOL

Intro Acordes:
C D7 G G7 C D7 G

G D7
Cmo te pago todas las noches
C
Todas las veces que me has hecho tan feliz (1)
T te entregas totalmente
D7 G
Me demuestras que eres solo para m (2 y 3)
G D7 G
Cmo te digo, cmo te explico
G7 C
Que necesito estarte haciendo sonrer (4)
D7
No puedo ver tu carita destrozada
Por el llanto y la tristeza
G
Porque me pone a sufrir (5 y 6)
G7 C D7
Te metiste completamente en mi vida
G
No hay un momento que no est
G7
Pensando en ti
C D7
Y te metiste como el agua entre mis manos

Page 6
G G7
Para quedarte siempre, siempre junto a m

C D7
Y te metiste as como no queriendo
Me ilusionaste, me enamoraste y
G
Hoy soy solo para ti

(segundo requinto con los mismos intro acordes)


G D7 G
Cmo te digo, cmo te explico
G7 C
Que necesito estarte haciendo sonrer (7)
D7
No puedo ver tu carita destrozada
Por el llanto y la tristeza
G
Porque me pone a sufrir (8)
G7 C D7
Te metiste completamente en mi vida
G
No hay un momento que no est
G7
Pensando en ti
C D7
Y te metiste como el agua entre mis manos
G G7
Para quedarte siempre, siempre junto a m

C D7
Y te metiste as como no queriendo
Me ilusionaste, me enamoraste y
G
Hoy soy solo para ti (9)
------------------------------------------

KEY/CLAVE:
Left Side Numbers = Fret numbers
Bottom Numbers = Finger numbers (index finger is 1, middle finger
is 2, ring finger is 3, pinky is 4)
X on top = don't play the string, mute it
'O' on top = this string is played openly
If theres not a number on the bottom (usually on the 6th string,
the fat one), this means to use your thumb if you can.

Numeros al izquierda = los trastes

Page 7
Numeros debajo = los dedos (primer dedo, segundo dedo, tercer dedo,
y el dedo chico que viene siendo el cuarto dedo)
'X' arriba = No toques esta cuerda, que no suene para nada
'O' arriba = esta cuerda se toca al aire o "abierta"
- Si no hay numero debajo de la cuerda (la sexta cuerda, la cuerda
mas gorda) esto quiero decir que uses tu dedo pulgar si es que
puedes.

C D7 G G7

2 3 3 3
3 4 4 4
4 5 5 5
5 6 6 6
6 7 7 7
2 1 4 3 2 4 1 3 2 1 1 T 3 2 4

Page 8