You are on page 1of 2

========

From: "hey gi" <gdegortes@tiscalinet.it>


Date: Mon, 29 May 2000 16:52:25 +0200
--------

hey gi & pulcinella maggio 2000

pochi accordi ma molte idee grande Ivan mio paesano


sono riuscito a trovare il riff ??

riff 1
|-------------3---------------------------|
|-5-5-3---3-----5-3---3-------------------|
|-------4---4-------4---4-2-4-------------|
|-----------------------------2-0---------|
|---------------------------------2-0-----|
|-------------------------------------3-0-|

riff 2
|-------------5---------------------------|
|-7-7-5---5-----7-5---5-------------------|
|-------6---6-------6---6-4-6-------------|
|-----------------------------4-2---------|
|---------------------------------4-2-----|
|-------------------------------------5-2-|

a cappella in tonalit di mi7

Signore stata una svista


abbi un occhio di riguardo per il tuo chitarrista

mi7 riff mi7 mi7

Signore se lanci uno strale,


sbaglia mira per favore non farmi del male

riff mi7 mi7

fa#
Hey te lo giuro in ginocchio qui in mezzo alla pista
Te lo giuro sulla Fender io non l'ho fatto apposta

riff 2 fa#7 fa#7

Mi7
perci Signore stata una svista
abbi un occhio di riguardo per il tuo chitarrista

riff
mi-7
Non so com' ma accaduto
Lui entrato nel bar con lei e si seduto
Io ero l affascinato
fa
La sua carica sessuale si spandeva nel locale
Fa mi-7
Ed io di desiderio stavo male
mi-7
Cos mi sono avvicinato
E a giocare a poker l'ho invitato
Avevo un full e lui due coppie
fa
Cosa rilanci se non hai pi niente tranne lei
Mi7
Se perdo tu l'avrai
Signore stata una svista
abbi un occhio di riguardo per il tuo chitarrista
riff

solo mi7 la
mi7
ti giuro Signore stata una svista
abbi un occhio di riguardo per il tuo chitarrista
mi-7
e le sue corde hanno vibrato
in una notte io quel sogno l'ho bruciato
mi-
mentre dormivo son scappato

fa
con le gambe intorpidite
le scarpe ancora slacciate
con le gambe intorpidite
le scarpe ancora slacciate
mi7
con il mio mazzo di carte truccate
riff mi7
riff mi7

gdegortes@tiscalinet.it