You are on page 1of 3

I Will Wait bass tab by Mumford & Sons

Intro

G|------------------------------------|--------------------------------------------|
D|--------------------3-3-2-2-5-5-5-5-|--------------------3-3-2-2-5-5-5-5-5-5-5-5-|
A|-0-0-0-0-2-2-2-2-3-3----------------|-0-0-0-0-2-2-2-2-3-3------------------------|
E|------------------------------------|--------------------------------------------|

Verse 1

G|-------------------------|---------------------|
D|-------3-----------5-----|------3---------5----|
A|-3-----------3-----------|-3---------3---------|
E|-------------------------|---------------------|

Pre Chorus

G|--------------------------------------------|---------------------------------------------|
D|--------------------3-3-2-2-5-5-5-5-5-5-5-5-|--------------------3-3-2-2-5-5-5-5-5-5-5-5--|
A|-0-0-0-0-2-2-2-2-3-3------------------------|-0-0-0-0-2-2-2-2-3-3-------------------------|
E|--------------------------------------------|---------------------------------------------|

Chorus 1

G|---------------------|---------------------|
D|----------2----5-----|----------2----5-----|
A|-3-------------------|-3-------------------|
E|---------------------|---------------------|

Instrumental 1

G|-------------------|----------------|
D|-------------------|--------2-2-5-5-|
A|-3-3-3-3-3-3-3-3-3-|-3-3-5-5--------|
E|-------------------|----------------|
verse 2

G|--------------------------------------------------------------------| X2
D|----------------3-3-3-3-3-3-3-3---------------5-5-5-5-5-5-5-5-------| X2
A|-3-3-3-3-3-3-3-3---------------3-3-3-3-3-3-3-3----------------------| X2
E|--------------------------------------------------------------------| X2

Chorus 2

G|--------------------------------------| X4
D|----------------2-2-2-2/6-5-5-5-------| X4
A|-3-3-3-3-3-3-3-3----------------------| X4
E|--------------------------------------| X4

Verse 3

G|-------------------------|
D|-------3-----------5-----|
A|-3-----------3-----------|
E|-------------------------|

Verse 3 (Continued)

G|--------------------------------------------------------------|
D|----------------3-3-3-3-3-3-3-3---------------5-5-5-5-5-5-5-5-|
A|-3-3-3-3-3-3-3-3---------------3-3-3-3-3-3-3-3----------------|
E|--------------------------------------------------------------|

Pre Instrumental

G|------------------------------------|--------------------------------------------|
D|--------------------3-3-2-2-5-5-5-5-|--------------------3-3-2-2-5-5-5-5-5-5-5-5-|
A|-0-0-0-0-2-2-2-2-3-3----------------|-0-0-0-0-2-2-2-2-3-3------------------------|
E|------------------------------------|--------------------------------------------|

Instrumental 2

G|--------------------------------------------------| X3
D|----------------------------3-3-2-2-5-5-5-5-------| X3
A|-3-3-3-3-3-3-2-2-0-0-0-0-0-0----------------------| X3
E|--------------------------------------------------| X3

Instrumental 2 (Continued)
G|----------------------------------------------------|
D|----------------------------3-3-2-2-5-5-5-5-5-5-5-5-|
A|-3-3-3-3-3-3-2-2-0-0-0-0-0-0------------------------|
E|----------------------------------------------------|

Chorus 3

G|--------------------------------------| X4
D|----------------2-2-2-2/6-5-5-5-------| X4
A|-3-3-3-3-3-3-3-3----------------------| X4
E|--------------------------------------| X4

Outro

G|----------|
D|----------|
A|-3--------|
E|----------|